ISO-10303-21;
HEADER;
FILE_DESCRIPTION (( 'STEP AP214' ),
    '1' );
FILE_NAME ('5021308.stp',
    '2016-05-25T13:53:02',
    ( '' ),
    ( '' ),
    'SwSTEP 2.0',
    'SolidWorks 2014',
    '' );
FILE_SCHEMA (( 'AUTOMOTIVE_DESIGN' ));
ENDSEC;

DATA;
#1 = CYLINDRICAL_SURFACE ( 'NONE', #30, 5.000000000000000000 ) ;
#2 = DIRECTION ( 'NONE',  ( 0.0000000000000000000, 0.0000000000000000000, -1.000000000000000000 ) ) ;
#3 = MECHANICAL_DESIGN_GEOMETRIC_PRESENTATION_REPRESENTATION (  '', ( #13 ), #104 ) ;
#4 = CARTESIAN_POINT ( 'NONE',  ( 0.0000000000000000000, 1000.000000000000000, 0.0000000000000000000 ) ) ;
#5 = CARTESIAN_POINT ( 'NONE',  ( 0.0000000000000000000, 0.0000000000000000000, 0.0000000000000000000 ) ) ;
#6 = PRODUCT_RELATED_PRODUCT_CATEGORY ( 'part', '', ( #44 ) ) ;
#7 = CARTESIAN_POINT ( 'NONE',  ( 0.0000000000000000000, 0.0000000000000000000, 0.0000000000000000000 ) ) ;
#8 = CARTESIAN_POINT ( 'NONE',  ( 6.123233995736766300E-016, 1000.000000000000000, 5.000000000000000000 ) ) ;
#9 = DIRECTION ( 'NONE',  ( 0.0000000000000000000, 0.0000000000000000000, 1.000000000000000000 ) ) ;
#10 = ADVANCED_FACE ( 'NONE', ( #123 ), #93, .F. ) ;
#11 = CARTESIAN_POINT ( 'NONE',  ( 0.0000000000000000000, 0.0000000000000000000, -5.000000000000000000 ) ) ;
#12 = PRESENTATION_LAYER_ASSIGNMENT (  '', '', ( #13 ) ) ;
#13 = STYLED_ITEM ( 'NONE', ( #60 ), #130 ) ;
#14 = ORIENTED_EDGE ( 'NONE', *, *, #136, .F. ) ;
#15 = CARTESIAN_POINT ( 'NONE',  ( 6.123233995736766300E-016, 1000.000000000000000, 5.000000000000000000 ) ) ;
#16 = DIRECTION ( 'NONE',  ( -0.0000000000000000000, -1.000000000000000000, -0.0000000000000000000 ) ) ;
#17 = CARTESIAN_POINT ( 'NONE',  ( 0.0000000000000000000, 0.0000000000000000000, 0.0000000000000000000 ) ) ;
#18 = AXIS2_PLACEMENT_3D ( 'NONE', #17, #88, #9 ) ;
#19 = CARTESIAN_POINT ( 'NONE',  ( 6.123233995736766300E-016, 0.0000000000000000000, 5.000000000000000000 ) ) ;
#20 =( LENGTH_UNIT ( ) NAMED_UNIT ( * ) SI_UNIT ( .MILLI., .METRE. ) );
#21 = DIRECTION ( 'NONE',  ( 0.0000000000000000000, -0.0000000000000000000, 1.000000000000000000 ) ) ;
#22 =( NAMED_UNIT ( * ) PLANE_ANGLE_UNIT ( ) SI_UNIT ( $, .RADIAN. ) );
#23 = ORIENTED_EDGE ( 'NONE', *, *, #100, .T. ) ;
#24 = AXIS2_PLACEMENT_3D ( 'NONE', #7, #57, #58 ) ;
#25 = AXIS2_PLACEMENT_3D ( 'NONE', #109, #54, #40 ) ;
#26 = CARTESIAN_POINT ( 'NONE',  ( 0.0000000000000000000, 1000.000000000000000, -5.000000000000000000 ) ) ;
#27 =( NAMED_UNIT ( * ) SI_UNIT ( $, .STERADIAN. ) SOLID_ANGLE_UNIT ( ) );
#28 =( NAMED_UNIT ( * ) SI_UNIT ( $, .STERADIAN. ) SOLID_ANGLE_UNIT ( ) );
#29 = DIRECTION ( 'NONE',  ( 0.0000000000000000000, 1.000000000000000000, 0.0000000000000000000 ) ) ;
#30 = AXIS2_PLACEMENT_3D ( 'NONE', #138, #55, #80 ) ;
#31 = APPLICATION_PROTOCOL_DEFINITION ( 'draft international standard', 'automotive_design', 1998, #33 ) ;
#32 = AXIS2_PLACEMENT_3D ( 'NONE', #5, #29, #118 ) ;
#33 = APPLICATION_CONTEXT ( 'automotive_design' ) ;
#34 = FILL_AREA_STYLE ('',( #75 ) ) ;
#35 = PRESENTATION_STYLE_ASSIGNMENT (( #47 ) ) ;
#36 =( NAMED_UNIT ( * ) PLANE_ANGLE_UNIT ( ) SI_UNIT ( $, .RADIAN. ) );
#37 = ORIENTED_EDGE ( 'NONE', *, *, #100, .F. ) ;
#38 = ADVANCED_FACE ( 'NONE', ( #48 ), #39, .T. ) ;
#39 = PLANE ( 'NONE',  #52 ) ;
#40 = DIRECTION ( 'NONE',  ( 0.0000000000000000000, 0.0000000000000000000, 1.000000000000000000 ) ) ;
#41 = UNCERTAINTY_MEASURE_WITH_UNIT (LENGTH_MEASURE( 1.000000000000000100E-005 ), #115, 'distance_accuracy_value', 'NONE');
#42 = SURFACE_SIDE_STYLE ('',( #43 ) ) ;
#43 = SURFACE_STYLE_FILL_AREA ( #34 ) ;
#44 = PRODUCT ( '5021308', '5021308', '', ( #63 ) ) ;
#45 = PRODUCT_DEFINITION ( 'UNKNOWN', '', #99, #133 ) ;
#46 = VECTOR ( 'NONE', #71, 1000.000000000000000 ) ;
#47 = SURFACE_STYLE_USAGE ( .BOTH. , #42 ) ;
#48 = FACE_OUTER_BOUND ( 'NONE', #117, .T. ) ;
#49 =( LENGTH_UNIT ( ) NAMED_UNIT ( * ) SI_UNIT ( .MILLI., .METRE. ) );
#50 =( NAMED_UNIT ( * ) PLANE_ANGLE_UNIT ( ) SI_UNIT ( $, .RADIAN. ) );
#51 =( NAMED_UNIT ( * ) SI_UNIT ( $, .STERADIAN. ) SOLID_ANGLE_UNIT ( ) );
#52 = AXIS2_PLACEMENT_3D ( 'NONE', #59, #102, #125 ) ;
#53 = SURFACE_STYLE_USAGE ( .BOTH. , #124 ) ;
#54 = DIRECTION ( 'NONE',  ( 0.0000000000000000000, 1.000000000000000000, 0.0000000000000000000 ) ) ;
#55 = DIRECTION ( 'NONE',  ( -0.0000000000000000000, -1.000000000000000000, -0.0000000000000000000 ) ) ;
#56 = AXIS2_PLACEMENT_3D ( 'NONE', #90, #107, #111 ) ;
#57 = DIRECTION ( 'NONE',  ( 0.0000000000000000000, 0.0000000000000000000, 1.000000000000000000 ) ) ;
#58 = DIRECTION ( 'NONE',  ( 1.000000000000000000, 0.0000000000000000000, 0.0000000000000000000 ) ) ;
#59 = CARTESIAN_POINT ( 'NONE',  ( 0.0000000000000000000, 1000.000000000000000, 0.0000000000000000000 ) ) ;
#60 = PRESENTATION_STYLE_ASSIGNMENT (( #53 ) ) ;
#61 = UNCERTAINTY_MEASURE_WITH_UNIT (LENGTH_MEASURE( 1.000000000000000100E-005 ), #49, 'distance_accuracy_value', 'NONE');
#62 = AXIS2_PLACEMENT_3D ( 'NONE', #127, #92, #21 ) ;
#63 = PRODUCT_CONTEXT ( 'NONE', #33, 'mechanical' ) ;
#64 =( GEOMETRIC_REPRESENTATION_CONTEXT ( 3 ) GLOBAL_UNCERTAINTY_ASSIGNED_CONTEXT ( ( #61 ) ) GLOBAL_UNIT_ASSIGNED_CONTEXT ( ( #49, #50, #51 ) ) REPRESENTATION_CONTEXT ( 'NONE', 'WORKASPACE' ) );
#65 = APPLICATION_CONTEXT ( 'automotive_design' ) ;
#66 = APPLICATION_PROTOCOL_DEFINITION ( 'draft international standard', 'automotive_design', 1998, #65 ) ;
#67 = ORIENTED_EDGE ( 'NONE', *, *, #116, .F. ) ;
#68 = FILL_AREA_STYLE ('',( #77 ) ) ;
#69 = MECHANICAL_DESIGN_GEOMETRIC_PRESENTATION_REPRESENTATION (  '', ( #95 ), #64 ) ;
#70 = ORIENTED_EDGE ( 'NONE', *, *, #112, .F. ) ;
#71 = DIRECTION ( 'NONE',  ( -0.0000000000000000000, -1.000000000000000000, -0.0000000000000000000 ) ) ;
#72 = VERTEX_POINT ( 'NONE', #26 ) ;
#73 = VECTOR ( 'NONE', #16, 1000.000000000000000 ) ;
#74 = ORIENTED_EDGE ( 'NONE', *, *, #97, .F. ) ;
#75 = FILL_AREA_STYLE_COLOUR ( '', #81 ) ;
#76 = FACE_OUTER_BOUND ( 'NONE', #89, .T. ) ;
#77 = FILL_AREA_STYLE_COLOUR ( '', #91 ) ;
#78 = DIRECTION ( 'NONE',  ( -0.0000000000000000000, -1.000000000000000000, -0.0000000000000000000 ) ) ;
#79 = SURFACE_STYLE_FILL_AREA ( #68 ) ;
#80 = DIRECTION ( 'NONE',  ( 0.0000000000000000000, 0.0000000000000000000, -1.000000000000000000 ) ) ;
#81 = COLOUR_RGB ( '',0.7921568627450980000, 0.8196078431372548800, 0.9333333333333333500 ) ;
#82 = ORIENTED_EDGE ( 'NONE', *, *, #126, .T. ) ;
#83 = CYLINDRICAL_SURFACE ( 'NONE', #108, 5.000000000000000000 ) ;
#84 = ORIENTED_EDGE ( 'NONE', *, *, #136, .T. ) ;
#85 = PRESENTATION_LAYER_ASSIGNMENT (  '', '', ( #95 ) ) ;
#86 = EDGE_LOOP ( 'NONE', ( #14, #37, #82, #114 ) ) ;
#87 = ADVANCED_FACE ( 'NONE', ( #137 ), #1, .T. ) ;
#88 = DIRECTION ( 'NONE',  ( 0.0000000000000000000, 1.000000000000000000, 0.0000000000000000000 ) ) ;
#89 = EDGE_LOOP ( 'NONE', ( #70, #84, #106, #131 ) ) ;
#90 = CARTESIAN_POINT ( 'NONE',  ( 0.0000000000000000000, 1000.000000000000000, 0.0000000000000000000 ) ) ;
#91 = COLOUR_RGB ( '',0.7921568627450980000, 0.8196078431372548800, 0.9333333333333333500 ) ;
#92 = DIRECTION ( 'NONE',  ( 0.0000000000000000000, 1.000000000000000000, 0.0000000000000000000 ) ) ;
#93 = PLANE ( 'NONE',  #62 ) ;
#94 = VERTEX_POINT ( 'NONE', #19 ) ;
#95 = STYLED_ITEM ( 'NONE', ( #35 ), #120 ) ;
#96 = VERTEX_POINT ( 'NONE', #11 ) ;
#97 = EDGE_CURVE ( 'NONE', #94, #96, #121, .T. ) ;
#98 = CARTESIAN_POINT ( 'NONE',  ( 0.0000000000000000000, 1000.000000000000000, -5.000000000000000000 ) ) ;
#99 = PRODUCT_DEFINITION_FORMATION_WITH_SPECIFIED_SOURCE ( 'ANY', '', #44, .NOT_KNOWN. ) ;
#100 = EDGE_CURVE ( 'NONE', #72, #139, #101, .T. ) ;
#101 = CIRCLE ( 'NONE', #56, 5.000000000000000000 ) ;
#102 = DIRECTION ( 'NONE',  ( 0.0000000000000000000, 1.000000000000000000, 0.0000000000000000000 ) ) ;
#103 = CIRCLE ( 'NONE', #18, 5.000000000000000000 ) ;
#104 =( GEOMETRIC_REPRESENTATION_CONTEXT ( 3 ) GLOBAL_UNCERTAINTY_ASSIGNED_CONTEXT ( ( #41 ) ) GLOBAL_UNIT_ASSIGNED_CONTEXT ( ( #115, #36, #28 ) ) REPRESENTATION_CONTEXT ( 'NONE', 'WORKASPACE' ) );
#105 = CIRCLE ( 'NONE', #25, 5.000000000000000000 ) ;
#106 = ORIENTED_EDGE ( 'NONE', *, *, #97, .T. ) ;
#107 = DIRECTION ( 'NONE',  ( 0.0000000000000000000, 1.000000000000000000, 0.0000000000000000000 ) ) ;
#108 = AXIS2_PLACEMENT_3D ( 'NONE', #4, #78, #2 ) ;
#109 = CARTESIAN_POINT ( 'NONE',  ( 0.0000000000000000000, 1000.000000000000000, 0.0000000000000000000 ) ) ;
#110 = PRODUCT_DEFINITION_SHAPE ( 'NONE', 'NONE',  #45 ) ;
#111 = DIRECTION ( 'NONE',  ( 0.0000000000000000000, 0.0000000000000000000, 1.000000000000000000 ) ) ;
#112 = EDGE_CURVE ( 'NONE', #139, #72, #105, .T. ) ;
#113 =( GEOMETRIC_REPRESENTATION_CONTEXT ( 3 ) GLOBAL_UNCERTAINTY_ASSIGNED_CONTEXT ( ( #119 ) ) GLOBAL_UNIT_ASSIGNED_CONTEXT ( ( #20, #22, #27 ) ) REPRESENTATION_CONTEXT ( 'NONE', 'WORKASPACE' ) );
#114 = ORIENTED_EDGE ( 'NONE', *, *, #116, .T. ) ;
#115 =( LENGTH_UNIT ( ) NAMED_UNIT ( * ) SI_UNIT ( .MILLI., .METRE. ) );
#116 = EDGE_CURVE ( 'NONE', #96, #94, #103, .T. ) ;
#117 = EDGE_LOOP ( 'NONE', ( #23, #129 ) ) ;
#118 = DIRECTION ( 'NONE',  ( 0.0000000000000000000, 0.0000000000000000000, 1.000000000000000000 ) ) ;
#119 = UNCERTAINTY_MEASURE_WITH_UNIT (LENGTH_MEASURE( 1.000000000000000100E-005 ), #20, 'distance_accuracy_value', 'NONE');
#120 = ADVANCED_BREP_SHAPE_REPRESENTATION ( '5021308', ( #130, #24 ), #113 ) ;
#121 = CIRCLE ( 'NONE', #32, 5.000000000000000000 ) ;
#122 = LINE ( 'NONE', #15, #73 ) ;
#123 = FACE_OUTER_BOUND ( 'NONE', #140, .T. ) ;
#124 = SURFACE_SIDE_STYLE ('',( #79 ) ) ;
#125 = DIRECTION ( 'NONE',  ( 0.0000000000000000000, -0.0000000000000000000, 1.000000000000000000 ) ) ;
#126 = EDGE_CURVE ( 'NONE', #72, #96, #128, .T. ) ;
#127 = CARTESIAN_POINT ( 'NONE',  ( 0.0000000000000000000, 0.0000000000000000000, 0.0000000000000000000 ) ) ;
#128 = LINE ( 'NONE', #98, #46 ) ;
#129 = ORIENTED_EDGE ( 'NONE', *, *, #112, .T. ) ;
#130 = MANIFOLD_SOLID_BREP ( 'Boss-Extrude1', #132 ) ;
#131 = ORIENTED_EDGE ( 'NONE', *, *, #126, .F. ) ;
#132 = CLOSED_SHELL ( 'NONE', ( #135, #87, #38, #10 ) ) ;
#133 = PRODUCT_DEFINITION_CONTEXT ( 'detailed design', #65, 'design' ) ;
#134 = SHAPE_DEFINITION_REPRESENTATION ( #110, #120 ) ;
#135 = ADVANCED_FACE ( 'NONE', ( #76 ), #83, .T. ) ;
#136 = EDGE_CURVE ( 'NONE', #139, #94, #122, .T. ) ;
#137 = FACE_OUTER_BOUND ( 'NONE', #86, .T. ) ;
#138 = CARTESIAN_POINT ( 'NONE',  ( 0.0000000000000000000, 1000.000000000000000, 0.0000000000000000000 ) ) ;
#139 = VERTEX_POINT ( 'NONE', #8 ) ;
#140 = EDGE_LOOP ( 'NONE', ( #67, #74 ) ) ;
ENDSEC;
END-ISO-10303-21;
