ISO-10303-21;
HEADER;
FILE_DESCRIPTION((''),'2;1');
FILE_NAME('ASM0001_ASM','2014-01-29T',('AndreasKeweloh'),(''),
'PRO/ENGINEER BY PARAMETRIC TECHNOLOGY CORPORATION, 2012360',
'PRO/ENGINEER BY PARAMETRIC TECHNOLOGY CORPORATION, 2012360','');
FILE_SCHEMA(('CONFIG_CONTROL_DESIGN'));
ENDSEC;
DATA;
#1=CARTESIAN_POINT('',(0.E0,-1.E0,0.E0));
#2=DIRECTION('',(0.E0,1.E0,0.E0));
#3=DIRECTION('',(1.E0,0.E0,0.E0));
#4=AXIS2_PLACEMENT_3D('',#1,#2,#3);
#6=CARTESIAN_POINT('',(0.E0,-1.E0,0.E0));
#7=DIRECTION('',(0.E0,1.E0,0.E0));
#8=DIRECTION('',(-1.E0,0.E0,0.E0));
#9=AXIS2_PLACEMENT_3D('',#6,#7,#8);
#11=CARTESIAN_POINT('',(0.E0,-1.E0,0.E0));
#12=DIRECTION('',(0.E0,-1.E0,0.E0));
#13=DIRECTION('',(1.E0,0.E0,0.E0));
#14=AXIS2_PLACEMENT_3D('',#11,#12,#13);
#16=CARTESIAN_POINT('',(0.E0,-1.E0,0.E0));
#17=DIRECTION('',(0.E0,-1.E0,0.E0));
#18=DIRECTION('',(-1.E0,0.E0,0.E0));
#19=AXIS2_PLACEMENT_3D('',#16,#17,#18);
#21=DIRECTION('',(0.E0,1.E0,0.E0));
#22=VECTOR('',#21,2.E0);
#23=CARTESIAN_POINT('',(1.E1,-1.E0,0.E0));
#24=LINE('',#23,#22);
#25=DIRECTION('',(0.E0,1.E0,0.E0));
#26=VECTOR('',#25,2.E0);
#27=CARTESIAN_POINT('',(-1.E1,-1.E0,0.E0));
#28=LINE('',#27,#26);
#29=CARTESIAN_POINT('',(0.E0,1.E0,0.E0));
#30=DIRECTION('',(0.E0,1.E0,0.E0));
#31=DIRECTION('',(1.E0,0.E0,0.E0));
#32=AXIS2_PLACEMENT_3D('',#29,#30,#31);
#34=CARTESIAN_POINT('',(0.E0,1.E0,0.E0));
#35=DIRECTION('',(0.E0,1.E0,0.E0));
#36=DIRECTION('',(-1.E0,0.E0,0.E0));
#37=AXIS2_PLACEMENT_3D('',#34,#35,#36);
#39=CARTESIAN_POINT('',(0.E0,1.E0,0.E0));
#40=DIRECTION('',(0.E0,-1.E0,0.E0));
#41=DIRECTION('',(1.E0,0.E0,0.E0));
#42=AXIS2_PLACEMENT_3D('',#39,#40,#41);
#44=CARTESIAN_POINT('',(0.E0,1.E0,0.E0));
#45=DIRECTION('',(0.E0,-1.E0,0.E0));
#46=DIRECTION('',(-1.E0,0.E0,0.E0));
#47=AXIS2_PLACEMENT_3D('',#44,#45,#46);
#49=DIRECTION('',(0.E0,1.E0,0.E0));
#50=VECTOR('',#49,2.E0);
#51=CARTESIAN_POINT('',(5.25E0,-1.E0,0.E0));
#52=LINE('',#51,#50);
#53=DIRECTION('',(0.E0,1.E0,0.E0));
#54=VECTOR('',#53,2.E0);
#55=CARTESIAN_POINT('',(-5.25E0,-1.E0,0.E0));
#56=LINE('',#55,#54);
#57=CARTESIAN_POINT('',(1.E1,-1.E0,0.E0));
#58=CARTESIAN_POINT('',(-1.E1,-1.E0,0.E0));
#59=VERTEX_POINT('',#57);
#60=VERTEX_POINT('',#58);
#61=CARTESIAN_POINT('',(5.25E0,-1.E0,0.E0));
#62=CARTESIAN_POINT('',(-5.25E0,-1.E0,0.E0));
#63=VERTEX_POINT('',#61);
#64=VERTEX_POINT('',#62);
#65=CARTESIAN_POINT('',(1.E1,1.E0,0.E0));
#66=CARTESIAN_POINT('',(-1.E1,1.E0,0.E0));
#67=VERTEX_POINT('',#65);
#68=VERTEX_POINT('',#66);
#69=CARTESIAN_POINT('',(5.25E0,1.E0,0.E0));
#70=CARTESIAN_POINT('',(-5.25E0,1.E0,0.E0));
#71=VERTEX_POINT('',#69);
#72=VERTEX_POINT('',#70);
#73=CARTESIAN_POINT('',(0.E0,-1.E0,0.E0));
#74=DIRECTION('',(0.E0,1.E0,0.E0));
#75=DIRECTION('',(1.E0,0.E0,0.E0));
#76=AXIS2_PLACEMENT_3D('',#73,#74,#75);
#77=PLANE('',#76);
#79=ORIENTED_EDGE('',*,*,#78,.T.);
#81=ORIENTED_EDGE('',*,*,#80,.T.);
#82=EDGE_LOOP('',(#79,#81));
#83=FACE_OUTER_BOUND('',#82,.F.);
#85=ORIENTED_EDGE('',*,*,#84,.T.);
#87=ORIENTED_EDGE('',*,*,#86,.T.);
#88=EDGE_LOOP('',(#85,#87));
#89=FACE_BOUND('',#88,.F.);
#90=ADVANCED_FACE('',(#83,#89),#77,.F.);
#91=CARTESIAN_POINT('',(0.E0,-1.E0,0.E0));
#92=DIRECTION('',(0.E0,1.E0,0.E0));
#93=DIRECTION('',(1.E0,0.E0,0.E0));
#94=AXIS2_PLACEMENT_3D('',#91,#92,#93);
#95=CYLINDRICAL_SURFACE('',#94,1.E1);
#96=ORIENTED_EDGE('',*,*,#78,.F.);
#98=ORIENTED_EDGE('',*,*,#97,.T.);
#100=ORIENTED_EDGE('',*,*,#99,.T.);
#102=ORIENTED_EDGE('',*,*,#101,.F.);
#103=EDGE_LOOP('',(#96,#98,#100,#102));
#104=FACE_OUTER_BOUND('',#103,.F.);
#105=ADVANCED_FACE('',(#104),#95,.T.);
#106=CARTESIAN_POINT('',(0.E0,-1.E0,0.E0));
#107=DIRECTION('',(0.E0,1.E0,0.E0));
#108=DIRECTION('',(1.E0,0.E0,0.E0));
#109=AXIS2_PLACEMENT_3D('',#106,#107,#108);
#110=CYLINDRICAL_SURFACE('',#109,1.E1);
#111=ORIENTED_EDGE('',*,*,#80,.F.);
#112=ORIENTED_EDGE('',*,*,#101,.T.);
#114=ORIENTED_EDGE('',*,*,#113,.T.);
#115=ORIENTED_EDGE('',*,*,#97,.F.);
#116=EDGE_LOOP('',(#111,#112,#114,#115));
#117=FACE_OUTER_BOUND('',#116,.F.);
#118=ADVANCED_FACE('',(#117),#110,.T.);
#119=CARTESIAN_POINT('',(0.E0,1.E0,0.E0));
#120=DIRECTION('',(0.E0,1.E0,0.E0));
#121=DIRECTION('',(1.E0,0.E0,0.E0));
#122=AXIS2_PLACEMENT_3D('',#119,#120,#121);
#123=PLANE('',#122);
#124=ORIENTED_EDGE('',*,*,#99,.F.);
#125=ORIENTED_EDGE('',*,*,#113,.F.);
#126=EDGE_LOOP('',(#124,#125));
#127=FACE_OUTER_BOUND('',#126,.F.);
#129=ORIENTED_EDGE('',*,*,#128,.F.);
#131=ORIENTED_EDGE('',*,*,#130,.F.);
#132=EDGE_LOOP('',(#129,#131));
#133=FACE_BOUND('',#132,.F.);
#134=ADVANCED_FACE('',(#127,#133),#123,.T.);
#135=CARTESIAN_POINT('',(0.E0,-1.E0,0.E0));
#136=DIRECTION('',(0.E0,1.E0,0.E0));
#137=DIRECTION('',(1.E0,0.E0,0.E0));
#138=AXIS2_PLACEMENT_3D('',#135,#136,#137);
#139=CYLINDRICAL_SURFACE('',#138,5.25E0);
#140=ORIENTED_EDGE('',*,*,#84,.F.);
#142=ORIENTED_EDGE('',*,*,#141,.T.);
#143=ORIENTED_EDGE('',*,*,#128,.T.);
#145=ORIENTED_EDGE('',*,*,#144,.F.);
#146=EDGE_LOOP('',(#140,#142,#143,#145));
#147=FACE_OUTER_BOUND('',#146,.F.);
#148=ADVANCED_FACE('',(#147),#139,.F.);
#149=CARTESIAN_POINT('',(0.E0,-1.E0,0.E0));
#150=DIRECTION('',(0.E0,1.E0,0.E0));
#151=DIRECTION('',(1.E0,0.E0,0.E0));
#152=AXIS2_PLACEMENT_3D('',#149,#150,#151);
#153=CYLINDRICAL_SURFACE('',#152,5.25E0);
#154=ORIENTED_EDGE('',*,*,#86,.F.);
#155=ORIENTED_EDGE('',*,*,#144,.T.);
#156=ORIENTED_EDGE('',*,*,#130,.T.);
#157=ORIENTED_EDGE('',*,*,#141,.F.);
#158=EDGE_LOOP('',(#154,#155,#156,#157));
#159=FACE_OUTER_BOUND('',#158,.F.);
#160=ADVANCED_FACE('',(#159),#153,.F.);
#161=CLOSED_SHELL('',(#90,#105,#118,#134,#148,#160));
#162=MANIFOLD_SOLID_BREP('',#161);
#164=DIMENSIONAL_EXPONENTS(0.E0,0.E0,0.E0,0.E0,0.E0,0.E0,0.E0);
#166=PLANE_ANGLE_MEASURE_WITH_UNIT(PLANE_ANGLE_MEASURE(1.745329251994E-2),#165);
#167=(CONVERSION_BASED_UNIT('DEGREE',#166)NAMED_UNIT(*)PLANE_ANGLE_UNIT());
#169=UNCERTAINTY_MEASURE_WITH_UNIT(LENGTH_MEASURE(1.E-2),#163,'closure',
'Maximum model space distance between geometric entities at asserted connectivities');
#170=(GEOMETRIC_REPRESENTATION_CONTEXT(3)GLOBAL_UNCERTAINTY_ASSIGNED_CONTEXT((
#169))GLOBAL_UNIT_ASSIGNED_CONTEXT((#163,#167,#168))REPRESENTATION_CONTEXT
('ID1','3'));
#171=CARTESIAN_POINT('',(0.E0,0.E0,0.E0));
#172=DIRECTION('',(0.E0,0.E0,1.E0));
#173=DIRECTION('',(1.E0,0.E0,0.E0));
#176=APPLICATION_CONTEXT(
'CONFIGURATION CONTROLLED 3D DESIGNS OF MECHANICAL PARTS AND ASSEMBLIES');
#177=APPLICATION_PROTOCOL_DEFINITION('international standard',
'config_control_design',1994,#176);
#178=DESIGN_CONTEXT('',#176,'design');
#179=MECHANICAL_CONTEXT('',#176,'mechanical');
#180=PRODUCT('DEI7089_100_ST','DEI7089_100_ST','NOT SPECIFIED',(#179));
#181=PRODUCT_DEFINITION_FORMATION_WITH_SPECIFIED_SOURCE('1','LAST_VERSION',#180,
.MADE.);
#190=CARTESIAN_POINT('',(1.E1,1.E0,-1.E1));
#191=DIRECTION('',(0.E0,0.E0,1.E0));
#192=DIRECTION('',(1.E0,0.E0,0.E0));
#193=AXIS2_PLACEMENT_3D('',#190,#191,#192);
#194=ITEM_DEFINED_TRANSFORMATION('','',#174,#193);
#195=(REPRESENTATION_RELATIONSHIP('','',#175,#187)REPRESENTATION_RELATIONSHIP_WITH_TRANSFORMATION(#194)SHAPE_REPRESENTATION_RELATIONSHIP());
#196=CONTEXT_DEPENDENT_SHAPE_REPRESENTATION(#195,#189);
#198=DIMENSIONAL_EXPONENTS(0.E0,0.E0,0.E0,0.E0,0.E0,0.E0,0.E0);
#200=PLANE_ANGLE_MEASURE_WITH_UNIT(PLANE_ANGLE_MEASURE(1.745329251994E-2),#199);
#201=(CONVERSION_BASED_UNIT('DEGREE',#200)NAMED_UNIT(*)PLANE_ANGLE_UNIT());
#203=UNCERTAINTY_MEASURE_WITH_UNIT(LENGTH_MEASURE(1.E-2),#197,'closure',
'Maximum model space distance between geometric entities at asserted connectivities');
#204=(GEOMETRIC_REPRESENTATION_CONTEXT(3)GLOBAL_UNCERTAINTY_ASSIGNED_CONTEXT((
#203))GLOBAL_UNIT_ASSIGNED_CONTEXT((#197,#201,#202))REPRESENTATION_CONTEXT
('ID2','3'));
#205=CARTESIAN_POINT('',(0.E0,0.E0,0.E0));
#206=DIRECTION('',(0.E0,0.E0,1.E0));
#207=DIRECTION('',(1.E0,0.E0,0.E0));
#209=MECHANICAL_CONTEXT('',#176,'mechanical');
#210=PRODUCT('ASM0001_ASM','ASM0001_ASM','NOT SPECIFIED',(#209));
#211=PRODUCT_DEFINITION_FORMATION_WITH_SPECIFIED_SOURCE('1','LAST_VERSION',#210,
.MADE.);
#213=PRODUCT_CATEGORY('part','');
#214=PRODUCT_RELATED_PRODUCT_CATEGORY('assembly','',(#210));
#215=PRODUCT_CATEGORY_RELATIONSHIP('','',#213,#214);
#216=PRODUCT_CATEGORY('part','');
#217=PRODUCT_RELATED_PRODUCT_CATEGORY('detail','',(#180));
#218=PRODUCT_CATEGORY_RELATIONSHIP('','',#216,#217);
#219=SECURITY_CLASSIFICATION_LEVEL('unclassified');
#220=SECURITY_CLASSIFICATION('','',#219);
#221=CC_DESIGN_SECURITY_CLASSIFICATION(#220,(#181,#211,#188));
#222=APPROVAL_STATUS('approved');
#223=APPROVAL(#222,'');
#224=CC_DESIGN_APPROVAL(#223,(#220,#181,#211,#182,#212));
#225=CALENDAR_DATE(114,29,1);
#226=COORDINATED_UNIVERSAL_TIME_OFFSET(1,0,.AHEAD.);
#227=LOCAL_TIME(10,27,2.4E1,#226);
#228=DATE_AND_TIME(#225,#227);
#229=APPROVAL_DATE_TIME(#228,#223);
#230=DATE_TIME_ROLE('creation_date');
#231=CC_DESIGN_DATE_AND_TIME_ASSIGNMENT(#228,#230,(#182,#212));
#232=DATE_TIME_ROLE('classification_date');
#233=CC_DESIGN_DATE_AND_TIME_ASSIGNMENT(#228,#232,(#220));
#234=PERSON('UNSPECIFIED','UNSPECIFIED',$,$,$,$);
#235=ORGANIZATION('UNSPECIFIED','UNSPECIFIED','UNSPECIFIED');
#236=PERSON_AND_ORGANIZATION(#234,#235);
#237=APPROVAL_ROLE('approver');
#238=APPROVAL_PERSON_ORGANIZATION(#236,#223,#237);
#239=PERSON_AND_ORGANIZATION_ROLE('creator');
#240=CC_DESIGN_PERSON_AND_ORGANIZATION_ASSIGNMENT(#236,#239,(#181,#211,#182,
#212));
#241=PERSON_AND_ORGANIZATION_ROLE('design_supplier');
#242=CC_DESIGN_PERSON_AND_ORGANIZATION_ASSIGNMENT(#236,#241,(#181,#211));
#243=PERSON_AND_ORGANIZATION_ROLE('classification_officer');
#244=CC_DESIGN_PERSON_AND_ORGANIZATION_ASSIGNMENT(#236,#243,(#220));
#245=PERSON_AND_ORGANIZATION_ROLE('design_owner');
#246=CC_DESIGN_PERSON_AND_ORGANIZATION_ASSIGNMENT(#236,#245,(#210,#180));
#5=CIRCLE('',#4,1.E1);
#10=CIRCLE('',#9,1.E1);
#15=CIRCLE('',#14,5.25E0);
#20=CIRCLE('',#19,5.25E0);
#33=CIRCLE('',#32,1.E1);
#38=CIRCLE('',#37,1.E1);
#43=CIRCLE('',#42,5.25E0);
#48=CIRCLE('',#47,5.25E0);
#78=EDGE_CURVE('',#59,#60,#5,.T.);
#80=EDGE_CURVE('',#60,#59,#10,.T.);
#84=EDGE_CURVE('',#63,#64,#15,.T.);
#86=EDGE_CURVE('',#64,#63,#20,.T.);
#97=EDGE_CURVE('',#59,#67,#24,.T.);
#99=EDGE_CURVE('',#67,#68,#33,.T.);
#101=EDGE_CURVE('',#60,#68,#28,.T.);
#113=EDGE_CURVE('',#68,#67,#38,.T.);
#128=EDGE_CURVE('',#71,#72,#43,.T.);
#130=EDGE_CURVE('',#72,#71,#48,.T.);
#141=EDGE_CURVE('',#63,#71,#52,.T.);
#144=EDGE_CURVE('',#64,#72,#56,.T.);
#163=(LENGTH_UNIT()NAMED_UNIT(*)SI_UNIT(.MILLI.,.METRE.));
#165=(NAMED_UNIT(*)PLANE_ANGLE_UNIT()SI_UNIT($,.RADIAN.));
#168=(NAMED_UNIT(*)SI_UNIT($,.STERADIAN.)SOLID_ANGLE_UNIT());
#174=AXIS2_PLACEMENT_3D('',#171,#172,#173);
#175=ADVANCED_BREP_SHAPE_REPRESENTATION('',(#174,#162),#170);
#182=PRODUCT_DEFINITION('design','',#181,#178);
#183=PRODUCT_DEFINITION_SHAPE('','SHAPE FOR DEI7089_100_ST.',#182);
#184=SHAPE_DEFINITION_REPRESENTATION(#183,#175);
#185=SHAPE_DEFINITION_REPRESENTATION(#186,#187);
#186=PRODUCT_DEFINITION_SHAPE('','SHAPE FOR ASM0001_ASM.',#212);
#187=SHAPE_REPRESENTATION('',(#193,#208),#204);
#188=NEXT_ASSEMBLY_USAGE_OCCURRENCE('4','Next assembly relationship',
'DEI7089_100_ST',#212,#182,$);
#189=PRODUCT_DEFINITION_SHAPE('Placement #4',
'Placement of DEI7089_100_ST with respect to ASM0001_ASM',#188);
#197=(LENGTH_UNIT()NAMED_UNIT(*)SI_UNIT(.MILLI.,.METRE.));
#199=(NAMED_UNIT(*)PLANE_ANGLE_UNIT()SI_UNIT($,.RADIAN.));
#202=(NAMED_UNIT(*)SI_UNIT($,.STERADIAN.)SOLID_ANGLE_UNIT());
#208=AXIS2_PLACEMENT_3D('',#205,#206,#207);
#212=PRODUCT_DEFINITION('design','',#211,#178);
ENDSEC;
END-ISO-10303-21;
